XML Feed

Archived Columns


Bookmark and Share

Exercizes

Hello again everyone!! Hope you had fun with the string skipping excercises let’s get ready for some legato and sweeping! Thanks to Joel as always for having me here.

G Lydian


E-----------------------------------t--t--t---------------------E
B---------------------------7-10-12-15-17-15-12-10-7------------B
G---------------------------------------------------------------G
D-------4-5-7-5-4/s-7-9-12--------------------------------------D
A-----5---------------------------------------------------------A
E-3-7-----------------------------------------------------------E



E---------------------------------------------------------------E
B---------------------------------------------------------------B
G---------------------------------------------------------------G
D-12-9-7/s-4----------------------------------------------------D
A------------5--------------------------------------------------A
E--------------7-3----------------------------------------------E


E blues


E--------------------------t------------------------------------E
B------------------9-12-15-17-15-12-9---------------------------B
G---------------------------------------------------------------G
D----------9-12-14--------------------14-12-9-------------------D
A-------11------------------------------------11----------------A
E-10-12------------------------------------------12-10----------E



E------------------------------------13-15-17-20-15-13----------E
B---------------------------13-15-17----------------------------B
G-------5-7-9-7-5/s12-14-16-------------------------------------G
D-5-7-9---------------------------------------------------------D
A---------------------------------------------------------------A
E---------------------------------------------------------------E



E---------------------------------------------------------------E
B---------------------------------------------------------------B
G-17-14-12------------------------------------------------------G
D---------------------------------------------------------------D
A----------15---------------------------------------------------A
E---------------------------------------------------------------E


Sweeping

                              t
E-----------------------15-17-19-17-15--------------------------E
B--------------------16----------------16-----------------------B
G----------12/s15-17----------------------17-15/s12-------------G
D-------13------------------------------------------13----------D
A-12-15------------------------------------------------15-12----A
E---------------------------------------------------------------E



E----------------16-11------------------------------------------E
B-------------14-------14---------------------------------------B
G----------13-------------13------------------------------------G
D-------16-------------------16---------------------------------D
A----14-------------------------14------------------------------A
E-12-------------------------------12---------------------------E


                 t                                t
E----------12-17-24-17-12-------------------11-16-23-16-11----------E
B-------17----------------17-------------16----------------16-------B
G----14----------------------14-------13----------------------13----G
D-12----------------------------12-11----------------------------11-D
A-------------------------------------------------------------------A
E-------------------------------------------------------------------E


OK there ya have it – some interesting licks i hope!! Have fun and keep shreddin’! Be sure to check out my site and listen to mp3s of my new album “Embracing the Spirit”available for sale starting August 23 and online very soon!

– Tony

Home Page: http://www.tonysmotherman.fr.st
Email: tonysmotherman@aol.com

Bookmark and Share
Please vote for us!

Top 100 Guitar Sites | Top 100 Tab Sites

No comments

Leave a Reply