XML Feed

Archived Columns


Bookmark and Share

Untitled from July 2001 (Legato Licks)

watch


E||--------------------------|--------------------------|
B||--------------------------|--------------------------|
G||--------------------------|--------------------------|
D||--------------------------|--------------17t---10h---|
A||--------------------17t---|--10h---14----------------|
E||--17t---10h---14----------|--------------------------|




--------------------------|--------------------------|
--------------------------|--------------------------|
--------------------------|--------------------------|
--14----------------------|--------------------------|
--------17t---10h---14----|--------------------17t---|
--------------------------|--17t---10h---14----------|




--------------------------|--------------------------|
--------------------------|--------------------------|
--------------------------|--------------------------|
--------------17t---10h---|--14----------------------|
--10h---14----------------|--------17t---10h---14----|
--------------------------|--------------------------|




--------------------------|--------||
--------------------------|--------||
--------------------------|--------||
--------------------------|--------||
--------------------17t---|--10~---||
--17t---10h---14----------|--------||


This is the intro of the Song Legatomizer from my CD "No more obscurity" released through Lion Music. It’s a little tapping thing in the key of G-Major. There is nothing special to say about it but sounds funny.

watch


E||--17t---10h---14----17t---|--10h---12h---------------|
B||--------------------------|--------------14----17t---|
G||--------------------------|--------------------------|
D||--------------------------|--------------------------|
A||--------------------------|--------------------------|
E||--------------------------|--------------------------|




--------------------------|--------------------------|
--10h---14----17t---10h---|--12h---------------------|
--------------------------|--------14----17t---10h---|
--------------------------|--------------------------|
--------------------------|--------------------------|
--------------------------|--------------------------|





--------------------------|--------------------------|
--------------------------|--------------------------|
--14----17t---10h---12h---|--------------------------|
--------------------------|--14----17t---10h---14----|
--------------------------|--------------------------|
--------------------------|--------------------------|






--------------------------|--------------------------|
--------------------------|--------------------------|
--------------------------|--------------------------|
--17t---10h---12h---------|--------------------------|
--------------------14----|--17t---10h---14----17t---|
--------------------------|--------------------------|





--------------------------|--------------------------|--------||
--------------------------|--------------------------|--------||
--------------------------|--------------------------|--------||
--------------------------|--------------------------|--------||
--10h---12h---------------|--------------------------|--------||
--------------14----17t---|--10h---14----17t---10h---|--12\---||


It’s a phrase with a seven note figure which is repeated on each string descending from the high e to the low E. The last tone of a figure is on another string, just hammer on it and it’s working.

watch


E||--------------------------|
B||---9h---10h---12p---10p---|
G||*-------------------------|
D||*-------------------------|
A||--------------------------|
E||--------------------------|




-------------------------|
--9/---11h---12h---14p---|
-------------------------|
-------------------------|
-------------------------|
-------------------------|




---------------||
--12p---11\----||
--------------*||
--------------*||
---------------||
---------------||


A repeating pattern. Pick the very first note and then only hammer-ons and pull-offs. Mute the strings (high-e and g-string) with your right hand.

watch


E||--------------------|--13h---15h---17p---15p---13----------|
B||--13h---15h---17----|--------------------------------17----|
G||--------------------|--------------------------------------|
D||--------------------|--------------------------------------|
A||--------------------|--------------------------------------|
E||--------------------|--------------------------------------|




--------------------|--------||
--15----13h---15h---|--17----||
--------------------|--------||
--------------------|--------||
--------------------|--------||
--------------------|--------||


Anotherrepeating pattern. I pick the three first notes (e,d & c) when it comes tothe b- string for the second time!

watch


E||--------------------------------------------------|
B||--------------------------------------------------|
G||--------------------------------------------------|
D||--------------------------------------10h---12h---|
A||--------------------10h---11h---13----------------|
E||--10h---11h---13----------------------------------|




--------------------------------------------------|
--------------------------------------------------|
--------10h---12h---13p---12p---10----------------|
--13----------------------------------13p---12p---|
--------------------------------------------------|
--------------------------------------------------|




--------------------------------------------------|
--------------------------------------------------|
--------------------------------------------------|
--10h---12h---13p---12p---10/---12h---13h---15p---|
--------------------------------------------------|
--------------------------------------------------|




--------------------------------------------------||
--------------------------------------------------||
--------------------------------------------17~---||
--13p---12/---13h---15h---17p---15p---13----------||
--------------------------------------------------||
--------------------------------------------------||


This phrase is in Eb-Major. The climbing up in the end is again without
picking!
Mute the strings.

Bookmark and Share
Please vote for us!

Top 100 Guitar Sites | Top 100 Tab Sites

No comments

Leave a Reply