XML Feed

Archived Columns


Bookmark and Share

Moveable Chords With Open Strings

Do the chords you use sound dull, typical, and lifeless! Well today is your lucky day, I’m going to show you how to play movable chords with open strings. Using open strings is the ultimate way to make your progressions sound more complex and interesting. I’m not going to bore you with the names of the chords listed below, but I guarantee you amazing results if you spend the time on them. I know you guitar freaks want to shred, but if you make some backing track progressions and jam along with them they will definitely bring out the best in your shred!

3) Movable Chords With Open Strings

--0-------0-------0-------0-------0-------0-------0-------0--------------
--0-------0-------0-------0-------0-------0-------0-------0--------------
--1-------2-------3-------4-------6-------8-------9------11--------------
--2-------3-------4-------5-------7-------9------10------12--------------
--2-------3-------4-------5-------7-------9------10------12--------------
--0-------1-------2-------3-------5-------7-------8-------10-------------

3) Continued

--0-------0-------0-------0-------0-------0-------0-------0--------------
--0-------0-------0-------0-------0-------0-------0-------0--------------
--0-------0-------0-------0-------0-------0-------0-------0--------------
--2-------3-------4-------5-------7-------9------10-------12-------------
--2-------3-------4-------5-------7-------9------10-------12-------------
--0-------1-------2-------3-------5-------7-------8-------10-------------

3) Continued

--0-------0-------0-------0-------0-------0-------0-------0-------0-------
--0-------0-------0-------0-------0-------0-------0-------0-------0-------
--2-------4-------5-------6-------7-------9-------10------11-----12-------
--2-------4-------5-------6-------7-------9-------10------11-----12-------
--0-------2-------3-------4-------5-------7-------8-------9------10-------
--------------------------------------------------------------------------

www.riffsorce.com
www.myspace.com/stapleddown
riffralph@yahoo.com

Bookmark and Share
Please vote for us!

Top 100 Guitar Sites | Top 100 Tab Sites

Trackbacks /
Pingbacks


    Warning: call_user_func(list_pings) [function.call-user-func]: First argument is expected to be a valid callback in /home/jwanasek/public_html/wp-includes/comment-template.php on line 1833

    Warning: call_user_func(list_pings) [function.call-user-func]: First argument is expected to be a valid callback in /home/jwanasek/public_html/wp-includes/comment-template.php on line 1833

2 comments

Leave a Reply