XML Feed

Archived Columns


Bookmark and Share

Moonlight Sonata

Key: C#-minor

The piece consists of almost only triplets, so keep the timing even. I haven’t printed out the fingering, you’ll have to figure it out for yourselves! Anyway, I’d suggest you use at least three of your fingers on the right hand, or else it’ll be kind of hard. So as a general advice, use both hands on the neck, and hit ’em notes hard!

lh = hammer on with left hand
(x)= root note


e |----------------------------------|-----------------------------------|
b |----------------------------------|-----------------------------------|
G |----------------------------------|-----------------------------------|
D |--6h11t14-6h11t14-6h11t14-6h11t14-|--6h11t14-6h11t14-6h11t14-6h11t14--|
A |----------------------------------|-----------------------------------|
E |-(9)------------------------------|-(7)-------------------------------|

e |----------------------------------|-----------------------------------|
b |----------------------------------|-----------------------------------|
G |----------------------------------|-----------------------------------|
D |--7h11t14-7h11t14-7h12t16-7h12t16-|--6h10t16-6h11t14-6h11t13-4h10t13--|
A |-----------------(5)--------------|-----------------------------------|
E |-(5)------------------------------|-(4)-------------------------------|

e |-----------------------------------------|----------------------------------------------|
b |-----------------------------------------|----------------------------------------------|
G |-----------------------------------------|----------------------------------------------|
D |-----------------------------------------|----------------------------------------------|
A |--t16----------------------lh11-----rh11-|-lh11------------------------lh11--------lh11-|
E |------h4h9-p4h9t12-p4h9t12-lh9--t12------|-lh8--h11t14-8h11t14-8h11t14-lh8--h11t14------|

e |------------------------------------|-------------------------------------|
b |------------------------------------|-------------------------------------|
G |------------------------------------|-------------------------------------|
D |------------------------------------|----------------------4--------------|
A |--lh11------------------lh4h9-0h4h9-|-lh11---rh11----------0h2h6-t14p2h6--|
E |--lh9-h12t16-9h12t16/17-------------|-lh7-t12-----7h12t16-----------------|

e |-----------------------------------|----------------------------------|
b |-----------------------------------|----------------------------------|
G |-----------------------------------|----------------------------------|
D |-----------------------------------|----------------------------------|
A |--t7-------------------------------|----------------------t10p2h5t10--|
E |-----lh4h7-4h7ht12-4h7ht12-4h7ht12-|-3h7t12-3h7t12-3h7t12-------------|

e |---------------------------------------|----------------------------------|
b |---------------------------------------|----------------------------------|
G |---------------------------------------|----------------------------------|
D |---------------------------------------|----------------------------------|
A |--t10----------------------------------|----------------------------------|
E |------lh7t13-3h7t13-3h7t13-/15p7t13/15-|-t15p8t12-3h7t12-3h9t12-/14p9h12--|

e |----------------------------------------|--------------------------------------|
b |----------------------------------------|--------------------------------------|
G |----------------------------------------|--------------------------------------|
D |----------------------------------------|--------------------lh4-t9t11-4t8t11--|
A |--lh9-t14t17-9t14t17-10------rh7--------|-lh9-t14t17-9t14t17-------------------|
E |--lh7----------------0-h7t12-----lh7t12-|-lh7----------------lh2---------------|

e |------------------------------------|-------------------------------------|
b |------------------------------------|-------------------------------------|
G |------------------------------------|-------------------------------------|
D |------------------------------------|-------------------------------------|
A |--------------------------t14-------|-t15-------7t10p7-t10p7t10-/13p7t13--|
E |--7h10t14-7h10t14-7h11t14-lh7h11t14-|-lh7h12t15-0------lh3-------0--------|

e |------------------------------------|-------------------------------------|
b |------------------------------------|-------------------------------------|
G |------------------------------------|-------------------------------------|
D |------------------------------------|-------------------------------------|
A |--------------------------t14-------|-t15-------7t10p7-t10p7t10-/13p7t13--|
E |--7h11t14-7h11t14-7h11t14-lh7h11t14-|-lh7h12t15-0------lh3-------0--------|

e |-----------------------------|
b |-----------------------------|
G |-----------------------------|
D |-----------------------------|
A |--t14------t14---------t14~--|
E |--lh7h11t14----lh11t14-lh7~--|

Bookmark and Share
Please vote for us!

Top 100 Guitar Sites | Top 100 Tab Sites

No comments

Leave a Reply