XML Feed

Archived Columns


Bookmark and Share

Buckethead Licks

The Shred of Buckethead! What’s that you say?, "Who’s Buckethead?", Buckethead is a verycreative, and experimental shredder who has found most of his fame in Japan. Just recently has Buckethead started to make a noise in the States, In this short time, he has been labeled as a "Post Neoclassical shred terror".. Take from that what you will.. Anyway, now that his music is available here in the states I highly suggest "Giant Robot" as a good album to buy if your looking for your fist taste of Buckethead.. How did he get the name Buckethead? ""Who’s this guitar playing son of a bitch is a question commonly asked, on his head a chicken bucket, on his face a plastic mask, he was born in a coop, raised in a cage, children fear him, and critics rave, he’s half alive and he’s half dead, and folks just call him Buckethead!"" (taken from "The Balled of Buckethead, from his album "Monsters and Robots") His technique stems from such influences as Steve Morse, Malmsteen, John Petrucci, Randy Rhoads and Satriani. Without a doubt, his blazing arpeggios are a force to be reckoned with, and his melodic lines can make a grown man cry. Although most of his material is written with a minor tonality, his songs in major keys flawlessly combine shred into catchy, almost pop-like tunes. I hope each of you can learn something from one of the most creative forces present in shred today. (by the way, Buckethead was recently hired by none other than Axl Rose to fill slash’s spot as lead guitarist in the reformation of Guns N’ Roses). For even more information on Buckethead, visit Bucketheadland.com. Since there have been many complaints concerning the technical difficulty of the lessons and tab on this site, I have decided to tab out some of Bucketheads less technically demanding riffs for those of you just taking the plunge into shred guitar. Those who now know who Buckethead is, but still seeking more of a technical challenge, I’m sure you can find it elsewhere in this months columns here at Insane Guitar (Or tune in next month, as I delve into the solo’s of Vai and Rhoads). Hope the new year is good to each of you.
– Christopher Kurtis




      Riff
      from "Want some Slaw?" - Giant Robot
      As
      fast as you can take it..

      E-----------------------------------------------------------------------
      B------------6--7--6~~~-----------7--6~~~--6--7--6~~~--------8--6--7----
      G-----------------------------------------------------------------------
      D---4--3-----------------4--3--------------------------4--3-------------
      A---4--3~~~--------------4--3~~~-----------------------4--3-------------
      E---2--1-----------------2--1--------------------------2--1-------------


      Repeat
      E------------------------------|----------------------------------------
      B---6--5--6--5--4--5--4--3~~~--|--------------7--6~~~-------------------
      G------------------------------|----------------------------------------
      D------------------------------|--4--3--3--3----------------------------
      A------------------------------|--4--3--3--3----------------------------
      E------------------------------|--2--1--1--1----------------------------


      Stick
      Pit - Monsters and Robots
      Once
      again, as fast as you can work it up..

      E---2--3--2--1--2--3--2--2--3--2--2--3--2--1--2--3--1--2--3--1--2--1----
      B-----------------------------------------------------------------------
      G-----------------------------------------------------------------------
      D-----------------------------------------------------------------------
      A-----------------------------------------------------------------------
      E-----------------------------------------------------------------------



      E---2--3--2--1--2--3--2--2--3--1--2--1--2--3--1--2--3--1--1--|----------
      B------------------------------------------------------------|----------
      G------------------------------------------------------------|----------
      D------------------------------------------------------------|----------
      A------------------------------------------------------------|----------
      E------------------------------------------------------------|----------



      E---------------------------------------|-------------------------------
      B---------------------------------------|-------------------------------
      G---------------------------------------|-------------------------------
      D---2--2--------1--1--------------------|-------------------------------
      A---------3--3--------2--2--------------|-------------------------------
      E---------------------------0--1--1--1--|-------------------------------



      E-----------------------------------------------------------------------
      B------t-----t------t------t------t------t------t------t------t---------
      G---5--9--5--11--5--12--5--14--5--15--5--17--5--19--5--21--5--22--4-----
      D-----------------------------------------------------------------------
      A-----------------------------------------------------------------------
      E-----------------------------------------------------------------------



      x4
      E---------------------------------------------------------------||------
      B---t-----t------t------t------t------t------t------t------t----||------
      G---9--4--11--4--12--4--14--4--15--4--17--4--19--4--21--4--22--*||------
      D--------------------------------------------------------------*||------
      A---------------------------------------------------------------||------
      E---------------------------------------------------------------||------



      Welcome
      to Buckethead Land - Giant Robot
      There's
      a riff in this song that reminds me of the into to crazy train..

      E-----------------------------------------------------------------------
      B-----------------------------------------------------------------------
      G-----------------------------------------------------------------------
      D---------------5--5--5--5--4--4--4--4--0--0--0--0----------------------
      A---2--2--2--2--------------------------------------4--4--4--5--5--5----
      E-----------------------------------------------------------------------



      E------------------|----------------------------------------------------
      B------------------|----------------------------------------------------
      G------------------|----------------------------------------------------
      D------------------|----------------------------------------------------
      A------------------|----------------------------------------------------
      E---3--3--3--3--3--|----------------------------------------------------



      E-----------------------------------------------------------------------
      B-----------------------------------------------------------------------
      G-----------------------------------------------------------------------
      D------------------------------------7--5~~~----------------------------
      A---------4-----5-----4--------4--5-----------------4-----5-----4-------
      E---2--2-----2-----2-----3--3-----------------2--2-----2-----2-----3----



      E---------------------------------------------------------------|-------
      B---------------------------------------------------------------|-------
      G---------7--6--4-----------------------------------------------|-------
      D------------------7--6--4--------------------------------------|-------
      A---------------------------7--6--4--------4-----5-----4--5--5--|-------
      E---3~~~-----------------------------2--2-----2-----2-----3--3--|-------



      E------------------|----------------------------------------------------
      B------------------|----------------------------------------------------
      G------------------|----------------------------------------------------
      D---4--4--5--5--4--|----------------------------------------------------
      A---4--4--5--5--4--|----------------------------------------------------
      E---2--2--3--3--2--|----------------------------------------------------

      

Bookmark and Share
Please vote for us!

Top 100 Guitar Sites | Top 100 Tab Sites

No comments

Leave a Reply