XML Feed

Archived Columns


Bookmark and Share

Untitled from November 2000 (Signature Licks)

Francesco Fareri is a instrumental guitar player involved with neoclassical and progressive metal, his main influences are Vitalij Kuprij, Jason Becker, Greg Howe, George Bellas, Shawn Lane and the great drummer Jon Doman. Francesco is going to release his first instrumental CD called “Suspension” where he shows all his musical ideas playing all instruments except the drums that he programmed. Visit The Official web-site of Francesco Fareri, you can find every month new exercises for guitar, a lot of rare transcriptions and above all some MP3 of his CD

Written on October 2000.

This Exercise is based on the arpeggios positions.


|-------------------------------------7/10-14-10----------10-14/19-14------------|
|-----------------------------------7------------12----12-------------15---------|
|--------4-7-4---4-9-4---4-11-7---7-----------------11-------------------16------|
|------5-------5-------5--------9-------------------------------------------16---|
|----5-------------------------------------------------------------------------17|
|3-7-----------------------------------------------------------------------------|



|-----------------------10-15/19-15----------15-19/22-17----------17-17-14-------|
|--------------------12-------------15----15-------------19----19----------15----|
|-----------------12-------------------16-------------------19----------------14-|
|--------------12----------------------------------------------------------------|
|14""""""10-14-------------------------------------------------------------------|
|--------------------------------------------------------------------------------|



|---14-14-10----------10-10-5----------------------------------------------------|
|15----------10----10---------7--------------------------------------------------|
|---------------11--------------7------------------------------------------------|
|---------------------------------7----------5"""--------------------------------|
|-----------------------------------9-5"""""-5"""--------------------------------|
|--------------------------------------------3"""--------------------------------|


This Exercise is based on B minor arpeggios and scale played with alternate picking.


|-------------------------------------14-19-17-15-14-15----14---------------------|
|----------------------------------15-------------------17----17-15-14-15-14-12---|
|---------7/11---------------11/16----------------------------------------------14|
|-------9------12---------12------------------------------------------------------|
|-----9-----------14-9-14---------------------------------------------------------|
|7-10-----------------------------------------------------------------------------|





|--------------------------------------------------------------------7-10""""-----|
|------------------------------------------------------------------7--------------|
|12-11----11------------12----11---------------------------------7----------------|
|------14----12-9-11-12----11----12-11-------------------------9------------------|
|--------------------------------------14-12-10----9---------9--------------------|
|-----------------------------------------------12---10-7-10----------------------|

Bookmark and Share
Please vote for us!

Top 100 Guitar Sites | Top 100 Tab Sites

No comments

Leave a Reply