XML Feed

Archived Columns


Bookmark and Share

Untitled from April 2001 (Signature Licks)

Francesco Fareri is a instrumental guitar player involved with neoclassical and progressive metal, his main influences are Vitalij Kuprij, Jason Becker, Greg Howe, George Bellas, Shawn Lane and the great drummer Jon Doman.
Francesco is going to release his first instrumental CD called “Suspension” where he shows all his musical ideas playing all instruments except the drums that he programmed. Visit The Official web-site of Francesco Fareri, you can find every month new exercises for guitar, a lot of rare transcriptions and above all some MP3 of his CD

Written on March 20001.

This is an exmple of a streching exercise for left hand.



|--------------------------------------------------------------------------------|
|--------------------------------------------------------------------------------|
|--------------------------------------------------------------------------------|
|------------------------------------------------12-15-19-15-12----------------12|
|---------12-15-19-15-12----------------12-15-19----------------19-15-12-15-19---|
|12-15-19----------------19-15-12-15-19------------------------------------------|



|--------------------------------------------------------------------------------|
|---------------------------------------------13-16-20-16-13----------------13-16|
|------12-15-19-15-12----------------12-15-19----------------19-15-12-15-19------|
|15-19----------------19-15-12-15-19---------------------------------------------|
|--------------------------------------------------------------------------------|
|--------------------------------------------------------------------------------|




|---13-16-20-16-13----------------13-16-20-16-13---------------------------------|
|20----------------20-16-13-16-20------------------------------------------------|
|------------------------------------------------19-15-12-15-19------------------|
|--------------------------------------------------------------------------------|
|---------------------------------------------------------------12-15-19-15-12---|
|--------------------------------------------------------------------------------|



This is an example of how to combine arpeggios and alternate picking.



|---------------------------------------------------------14-15-19-14------------|
|---------------------------------------------15-14-15-17-------------15---------|
|---------------------------11----------11/16----------------------------16\11-12|
|----------------9/11-12-14----12----12------------------------------------------|
|--------9-10-12------------------14---------------------------------------------|
|9-10-12-------------------------------------------------------------------------|



|---------------------10-12-14/15-14-12------------------------------------------|
|------------------12-------------------15-14-12---------------------------------|
|14-12-11-------11-------------------------------14-12-11------------------------|
|---------14-12-------------------------------------------12---------------------|
|------------------------------------------------------------14-12-10\9----------|
|-----------------------------------------------------------------------12-10-9-7|


This is a string skipping example.



|------------------------------------------------------------------12------------|
|--------------------------10-----------------------------12-14-15----15-14-12---|
|------------------9-11-12----12-11-9--------------------------------------------|
|-------7--------------------------------------7---------------------------------|
|7-9-10---10-9-7------------------------7-9-10---10-9-7--------------------------|
|--------------------------------------------------------------------------------|



|---------------------------12----------------------------------------17---------|
|------------------12-14-15----15-14-12----------------------17-19-20----20-19-17|
|--------9---------------------------------------14------------------------------|
|9-11-12---12-11-9----------------------14-16-17----17-16-14---------------------|
|--------------------------------------------------------------------------------|
|--------------------------------------------------------------------------------|


Bookmark and Share
Please vote for us!

Top 100 Guitar Sites | Top 100 Tab Sites

No comments

Leave a Reply