XML Feed

Archived Columns


Bookmark and Share

Untitled from October 2000 (Legato Licks)


Played in groups of four.
     x4      x4      x4      x4       x4       x4       x4      x4
|---------------------------------------------------------------------|
|--0h5h8p--0h4h7p--0h5h8p--0h7h10p--0h8h12p--0h7h10p--0h5h8p--0h4h7p--|
|---------------------------------------------------------------------|
|---------------------------------------------------------------------|
|---------------------------------------------------------------------|
|---------------------------------------------------------------------|


     x4     x4
|----------------------------------|
|--0h8p5p--0h7p4p------------------|
|----------------------and so on...|
|----------------------------------|
|----------------------------------|
|----------------------------------|



Exercise 2

Played in groups of four.


Descending
|--22p20p19\17h20p19p17\15h19p17p15\14h17p15p14\12h15p14p12\10------|
|-------------------------------------------------------------------|
|--------------------------------------------------and so on...-----|
|-------------------------------------------------------------------|
|-------------------------------------------------------------------|
|-------------------------------------------------------------------|


Ascending
|--0h2h3p0h2h3h5p2h3h5\7p3h5h7/8p5h7h8/10p7h8h10/12p8h10h12/14------|
|-------------------------------------------------------------------|
|-------------------------------------------------and so on...------|
|-------------------------------------------------------------------|
|-------------------------------------------------------------------|
|-------------------------------------------------------------------|




Exercise 3

These runs are played in triplets.

Ascending
Descending
|---------------------------7h8h10/12-12p10p8-----------------------------------|
|---------------------6h8h10-----------------12p10p8----------------------------|
|----------------5h7h9------------------------------10p9p7----------------------|
|-----------5h7h9-----------------------------------------10p9p7----------------|
|------5h7h8----------------------------------------------------10p8p7----------|
|-5h7h8---------------------------------------------------------------10p8p7\5--|

By: Corey

Bookmark and Share
Please vote for us!

Top 100 Guitar Sites | Top 100 Tab Sites

No comments

Leave a Reply