XML Feed

Archived Columns


Bookmark and Share

Untitled from January 2001 (Impellitteri Licks)

WOOHOO!!! Happy New Years shredders. Hope ya guys had a good x-mas and all. Well we’re gonna get into a couple of kewl Impellitteri solos to get u guys shredded ur @$$es off this month. Hope ya’ll enjoy em and try em out. First off here’s a solo that i actually just learned recently. It’s alot of fun and a lil’ bit of a challenge… well it was to me at least. Anyways, it’s Father Forgive Them. Yes I realized also… Chris Impellitteri owns us all pretty much, one of my favorite players. Well, here goes…




|-18-17-15----------20-18-17-15-18-17-15----------18-17-15----------17---|
|----------18-17-15----------------------18-17-15----------18-17-15------|
|------------------------------------------------------------------------|
|------------------------------------------------------------------------|
|------------------------------------------------------------------------|
|------------------------------------------------------------------------|



|-15-13------------------------------------------------------------------|
|-------17-15-13---------------------------------------------------------|
|----------------15-14-12----------15-14-12-14-12------------------------|
|-------------------------15-14-12----------------15-14-12-15-14-12-10---|
|------------------------------------------------------------------------|
|------------------------------------------------------------------------|



          N.H. N.H.
|-----------------------24b-------------------5---13-10-------/17-13-----|
|-10~------------7------------------------6-----6--------------------15--|
|----------5--------------------------------7-----------14-10------------|
|-------------------------------------3-7--------------------------------|
|-----------------------------------5------------------------------------|
|------------------------------------------------------------------------|



|----13-18-13-------/22-18----------------18------------12-12-12-12-13---|
|-------------15---------------------------------------------------------|
|-14-------------15--------22-19----19-22----22-19-----------------------|
|--------------------------------20----------------20--------------------|
|------------------------------------------------------------------------|
|------------------------------------------------------------------------|



|-12-12-12-12-12-12-16-16-12-12-12-12-17-16-13----------17-16-13---------|
|----------------------------------------------17-15-13----------17-15---|
|------------------------------------------------------------------------|
|------------------------------------------------------------------------|
|------------------------------------------------------------------------|
|------------------------------------------------------------------------|



|----19-17-16-20-19-17-19-17-16----------21-19-17----------------17-19---|
|-13----------------------------18-17-15---------------------------------|
|-------------------------------------------------21-19-18-19-21---------|
|------------------------------------------------------------------------|
|------------------------------------------------------------------------|
|------------------------------------------------------------------------|



|-21-19-17---------------------------------------------------10-13p10----|
|----------21-------21b~-------------------------------------------------|
|-------------19-18---------15p10----------10-15p10----10-15----------15-|
|---------------------------------12----12----------12-------------------|
|------------------------------------13----------------------------------|
|------------------------------------------------------------------------|



|-------10-18p13----------13----------------------------------12-17p12---|
|----------------15----15------------------------------------------------|
|-10-15-------------15-------17p12----------12-17p12----12-17------------|
|----------------------------------14----14----------14------------------|
|-------------------------------------15---------------------------------|
|------------------------------------------------------------------------|



|----------12-21-19-17---------------------------------------------------|
|-14----14----------------------20b~-------------------------------------|
|----14----------------21-19-18------------------------------------------|
|------------------------------------------------------------------------|
|------------------------------------------------------------------------|
|------------------------------------------------------------------------|

Whew! Ok.. i’m sweatin’ ballz over here. But we’re not done yet of course. Next up is part of the Hold The Line solo. This one is quite a beast as well… lots of fun tapping and string skipping antics.



|----------10-11-13-11-10------------------------------------------------|
|-10-11-13----------------13-11-10-8-------------------------------------|
|------------------------------------12-10-8-----------------------------|
|--------------------------------------------12-10-8---------------------|
|----------------------------------------------------12-10-12-10-8-10-12-|
|------------------------------------------------------------------------|



|------------------------------------------------------------------------|
|---------------------------------------------------------------------11-|
|--------------------8-10-12-10-8---------------12~----------------12----|
|-8-10-12-10-8-10-12--------------12-10-8-----------------------12-------|
|-----------------------------------------12-10-----------10-13----------|
|------------------------------------------------------10----------------|



|-10h13h15t18p15p13p10----------------------------------10h13h15t18p15p--|
|------------------------------------------------------------------------|
|----------------------15p12p10----------------10h12p15------------------|
|------------------------------------------------------------------------|
|-------------------------------15p13p10h13h15---------------------------|
|------------------------------------------------------------------------|



|-13p10t20p15p13p10t18p15p13p10------------------------------------------|
|------------------------------------------------------------------------|
|-------------------------------15p12p10t17p15p12p10----------------10h--|
|------------------------------------------------------------------------|
|----------------------------------------------------15p13p10h13h15------|
|------------------------------------------------------------------------|



|-------10h13h15t18p15p13p10t20p15p13p10t18p15p13p10h15p13p10------------|
|-------------------------------------------------------------13p11p10t--|
|-12h15------------------------------------------------------------------|
|------------------------------------------------------------------------|
|------------------------------------------------------------------------|
|------------------------------------------------------------------------|



|------------------------------------------------------------------------|
|-18p13p11p10----11------------------------------------------------------|
|-------------12----12p10p8----10---------------------10h12p10~----------|
|---------------------------12----12\10p8p7---7h10h12--------------------|
|-------------------------------------------8----------------------------|
|------------------------------------------------------------------------|



|------------------------------------------------------------------------|
|------------------------------------------------------------------------|
|----------------------------------------------------7h8h10p8p7----------|
|---------------------------------------5h7h8-7h8h10------------10p8p7h--|
|-------3h5h6p5p3-----------3h5h6-5h6h8----------------------------------|
|-3h5h6-----------6p5p3h5h6----------------------------------------------|



|--------------------------------------------------10h13h15t18p15p13p10t-|
|-----------------------------------------10h11h13-----------------------|
|---------8h10h12p10p8------------8h10h12--------------------------------|
|-8h10\12--------------12p8h10h12----------------------------------------|
|------------------------------------------------------------------------|
|------------------------------------------------------------------------|



|-20p15p13p10t18p15p13p10------------------------------------------------|
|-------------------------13p11p10t18p13p11p10----11---------------------|
|----------------------------------------------12----12p10p8----10-------|
|------------------------------------------------------------12----12\10-|
|------------------------------------------------------------------------|
|------------------------------------------------------------------------|


    exaggerated whammy dips then dive the open
|------------------------------------------------------------------------|
|------------------------------------------------------------------------|
|----------------10h12~-----------------p0-------------------------------|
|-p8p7---7h10h12---------------------------------------------------------|
|------8-----------------------------------------------------------------|
|------------------------------------------------------------------------|

YEEHAW! Man I love that stuff… hope u guys can handle all this madness. Cuz we’re going to some more insanity. Well actually we’re gonna calm it down a little. This here is Countdown To The Revolution. A bit easier than the last two you could say but still pretty kewl. Check it out.


|-------------------------------------------------------15----15-17-19---|
|-------------------17----------------------------17-19----19------------|
|----------------16----16----------------------16------------------------|
|-------------17----------19-17-16----16-17-19---------------------------|
|-------14-19----------------------19------------------------------------|
|-12-15------------------------------------------------------------------|



|-15--------------------------12----15-12--------------------------------|
|----17--------------------------15-------15-12--------------------------|
|-------16---------------/14b-------------------15p14-12h13--------------|
|----------17-----------------------------------------------14-12--------|
|-------------19-14\----------------------------------------------14-13--|
|------------------------------------------------------------------------|


                            hold bend
|----------------------------------------------------------------12-15---|
|----------------15b---15-15-15-15-15-15-15-15-15~-----------------------|
|----------------------------------------------------12----12-16---------|
|-------14~---------------------------------------------14---------------|
|-12-10------------------------------------------------------------------|
|------------------------------------------------------------------------|



|--------------------------------------------------------19p15----15p12h-|
|-15-12-----------------------------------15~----15b~----------17--------|
|-------15-12h13----14p12-------14b-12~----------------------------------|
|----------------14-------14-12------------------------------------------|
|------------------------------------------------------------------------|
|------------------------------------------------------------------------|



|-15p12----------12--------------------12-----------------12-16----------|
|-----------------------------------------15-12-----12-15-------12-15----|
|-------16p12h16----16p12\9h12~----14b----------14b-------------------15-|
|------------------------------------------------------------------------|
|------------------------------------------------------------------------|
|------------------------------------------------------------------------|



|------------------------------------------------------------------------|
|-12-15------------------------------------------------------------------|
|-------14-12----14-12---------------------------------------------------|
|-------------14-------14-12---------------------------------------------|
|----------------------------14-13-12-10~--------------------------------|
|------------------------------------------------------------------------|



Next up... I'll Be With You.

|-12-11-9----------------------------------------------------------------|
|---------12-10-9--------------------------------------------------------|
|-----------------11-9-8--------11-9-9-13-11-9-------9---------13-11-9---|
|------------------------11-9-7----------------13-11---13-11-9-----------|
|------------------------------------------------------------------------|
|-----------------------------------------------------------------------|



|-----------------------12-11-9------------------------------------------|
|--------12-10-9----------------12-10-9----------------------------------|
|-11-9-8---------11-9-8-----------------11-9-8--------9~-----------------|
|----------------------------------------------11-9-7-----------2-6---2--|
|------------------------------------------------------------4------4----|
|------------------------------------------------------------------------|



|-------4---9---12-9------15-12-------------------------16p12----16p12\9-|
|---5-----5---5-----------------14----------------------------14---------|
|-----6--------------13-9----------13------------------------------------|
|-6-----------------------------------14---------------------------------|
|----------------------------------------16-11---------------------------|
|----------------------------------------------12-9~---------------------|


                                    hold bend
|-h12p9---------9--------------------------------------------------------|
|------------------------------------------------------------------------|
|-------13p9h13---13p9\6h9p6------9~----4b--4-4-4~-----------------------|
|------------------------------------------------------------------------|
|----------------------------11p7----------------------------------------|
|------------------------------------------------------------------------|



And to finish it up here's Kingdom of Light... Enjoy.

|------------------------------------------------------------------------|
|------------------------------------------------------------------------|
|----------------------------------------11----------14-12-11------------|
|-12-11-9---------------9-11-12-11-12-14----14-12-11----------14-12-11---|
|---------12-10-9-10-12--------------------------------------------------|
|------------------------------------------------------------------------|



|------------------------------------------------------------------------|
|-------------------------------------------------------10b~---r-7p5-----|
|-16-14-12-14-12-11-12-11-9-11-9-7-9-7-6-------/11~------------------4h6-|
|----------------------------------------9-7-5---------------------------|
|------------------------------------------------------------------------|
|------------------------------------------------------------------------|



|----------7-5-3-2-------------------------------------------------------|
|----3h5h7---------7-5-3-2-----3-2-------------------------------0h6h7h--|
|-h7-----------------------4-2-----4-2-----------------2-4-7b~-----------|
|--------------------------------------4-2-0---0-2-4-5-------------------|
|--------------------------------------------4---------------------------|
|------------------------------------------------------------------------|



|------------------------------------------------------------------------|
|-10p7p6p0h7h10t15p7p6---------0h6h7h10p7p6h7h10t15p10p7p5-----------6h7-|
|----------------------9p7p6h9-----------------------------9p7p6h7h9-----|
|------------------------------------------------------------------------|
|------------------------------------------------------------------------|
|------------------------------------------------------------------------|



|--------------------------------------------------------------10-9h10p9-|
|-h10p7p6p0h10t15p10p7p6-------6h10t15p7p6----------10b~-----------------|
|------------------------9p6h9-------------9p7p6h7~----------------------|
|------------------------------------------------------------7-----------|
|---------------------------------------------------------/9-------------|
|------------------------------------------------------------------------|



|-h10p9h10p9-14p10----14p10\7h10p7---------7-----------------------------|
|------------------12----------------------------------------------------|
|----------------------------------11p7h11---11p7\4h7p4-------7----11~---|
|------------------------------------------------------------------------|
|-------------------------------------------------------9p5h9------------|
|------------------------------------------------------------------------|

Well that’s it for this month. Hope u guys enjoyed the column and have fun with all of these solos. They should keep u busy for a lil’ while at least. Keep shredding. Laterz.

Bookmark and Share
Please vote for us!

Top 100 Guitar Sites | Top 100 Tab Sites

No comments

Leave a Reply