XML Feed

Archived Columns


Bookmark and Share

'Really Bad Day' Lick

HELLO PEOPLE!!! ARE YOU OK? WELL, I THINK YOU ALWAYS WANT TO IMPROVE YOUR ALTERNATED PICKING. THIS EXERCISE WAS TAKEN FROM MY SONG "REALLY BAD DAD", I PLAY THIS PART IN "A MAJOR" AND IT’S A VERY GOOD EXERCISE FOR ALTERNATED PICKING. PAY ATTENTION YOU NEED TO JUMP FROM STRING 3 TO STRING 1 DURING ALL EXERCISE. PAUL GILBERT DOES IT A LOT IN HIS SONGS. I HOPE YOU ENJOY IT, IF YOU HAVE ANY DOUBT SEND AN EMAIL: ESCESE@BOL.COM.BR
SEE YOU!
CARLOS LICHMAN
SITE:
WWW.LICHMAN.HPG.COM.BR

PHONE:55 0XX51 3344 1745


E||-----------------------5--|---------------------------|
B||--------------------------|---------------------------|
G||--------------4--5--7-----|--7--5--4---------------8--|
D||-----------5--------------|-----------5---------9-----|
A||--------5-----------------|--------------7--11--------|
E||--5--9--------------------|---------------------------|




---------7------------------|----------------------9----------|
----------------------------|---------------------------------|
--9--11-----11--9--8--------|----------10--11--13-----13--11--|
----------------------9-----|------11-------------------------|
-------------------------9--|--13-----------------------------|
----------------------------|---------------------------------|



----------------------------------|--11---------------||
----------------------------------|-------------------||
--10------------------12--13--15--|------15--13--12--*||
------11----------13--------------|------------------*||
----------11--15------------------|-------------------||
----------------------------------|-------------------||




------------------11--------------|------------------11--------------|
----------------------------------|----------------------------------|
------12--13--15------15--13--12--|------12--13--15------15--13--12--|
--13------------------------------|--13------------------------------|
----------------------------------|----------------------------------|
----------------------------------|----------------------------------|




------------------13--------------|------------------13--------------|
----------------------------------|----------------------------------|
------14--15--17------17--15--14--|------14--15--17------17--15--14--|
--15------------------------------|--15------------------------------|
----------------------------------|----------------------------------|
----------------------------------|----------------------------------|




------------------15--------------|------------------15--------------|
----------------------------------|----------------------------------|
------16--17--19------19--17--16--|------16--17--19------19--17--16--|
--17------------------------------|--17------------------------------|
----------------------------------|----------------------------------|
----------------------------------|----------------------------------|




--------------------------------------------||
--------------------------------------------||
--------------------------------------------||
--------------------------------------------||
--19--17--16--17--16--14--------------------||
--------------------------17--15--14--12----||

Bookmark and Share
Please vote for us!

Top 100 Guitar Sites | Top 100 Tab Sites

No comments

Leave a Reply