XML Feed

Archived Columns


Bookmark and Share

Crushing Day

Hello my friend around the world!!! well….there are many guitarist that we (guitarists) love..! We dream to become one of them…we listen their song, study their exercises, watch their videos.. because we want to be like them. One of the great guitarist that I love to listen is Joe Satriani! This exercises I took from the song "Crushing Day" (Surfing with the alien album). He uses alternated picking during all this part and he plays very very fast (169 bpm)!! You have to play in 80 bpm and increase step by step to 169 or more if you want!
See you!
Keep on touch!
arlos Lichman
www.lichman.hpg.com.br



E||----------------------------------|----------------------------------|
B||----------------------------------|----------------------------------|
G||----------------------------------|--------------------------------5-|
D||--------------------------------3-|------3-5---3-5-7-3-5-7-8-5-7-8---|
A||--------3-----3-----3-5-6-3-5-6---|--5-6-----6-----------------------|
E||--3-5-6---5-6---5-6---------------|----------------------------------|




-----------------------------------|
------------------------6--------8-|
------5-----5-7h8-5-7-8---7-8-10---|
--7-8---7-8------------------------|
-----------------------------------|
-----------------------------------|




-------------------------------------------------|
----------10-------10-11----10-11-13-10--11--13--|
--8-10-12----10-12-------12----------------------|
-------------------------------------------------|
-------------------------------------------------|
-------------------------------------------------|




----------13--15--17--13--15--17--18--15--17------|
--15--16--------------------------------------18--|
--------------------------------------------------|
--------------------------------------------------|
--------------------------------------------------|
--------------------------------------------------|




--15----------------------------------------------|
------16--18--15--16------15----------------------|
----------------------17------15--17--14--15--12--|
--------------------------------------------------|
--------------------------------------------------|
--------------------------------------------------|




------15h-11--------------------------------------|
--------------15h-11----------15------------------|
--14------------------14--12------15--14--12------|
----------------------------------------------13--|
--------------------------------------------------|
--------------------------------------------------|



--------------------------------------------||
--------------------------------------------||
------14--12--------------------------------||
--12----------13h-12------------------------||
----------------------13--12----------------||
------------------------------13--11--13~---||


Bookmark and Share
Please vote for us!

Top 100 Guitar Sites | Top 100 Tab Sites

No comments

Leave a Reply