XML Feed

Archived Columns


Bookmark and Share

Arpeggios

Here’s a B minor7 th arpeggio that cover a great deal of the fret board


----------------------------14-17-19-17-14-----------
-------------------------15---------------15---------
----------------11-14-16---------------------16-14---
-------------12--------------------------------------
-----9-12-14-----------------------------------------
-7-10------------------------------------------------

----------------------------------------------------- -17-14-14~~~----------------------------------------- ----------------------------------------------------- ----------------------------------------------------- ----------------------------------------------------- -----------------------------------------------------

Ex:2 instead of just playing arpeggio from lowest to highest try making up a lick


-19-16-12----12-------------------------------------- ----------------------------------------------------- ----------16----16-13---16-13---13-16-13~~~---------- ----------------------14------14--------------------- ----------------------------------------------------- -----------------------------------------------------

Here’s a speedy C major seven arpeggio


-19-15-------17-13-------15-12-------13-10----------- -------17----------15----------13----------12-------- ----------17----------16----------14---------12------ ----------------------------------------------------- ----------------------------------------------------- -----------------------------------------------------
-12-8------10-7----8-5-----7-3----------------------- ------10--------8------6-------5--------------------- --------10--------9------7-------5-5~~~-------------- ----------------------------------------------------- ----------------------------------------------------- -----------------------------------------------------

That’s all for now

Bookmark and Share
Please vote for us!

Top 100 Guitar Sites | Top 100 Tab Sites

No comments

Leave a Reply