XML Feed

Archived Columns


Bookmark and Share

Tapping Arpeggios pt. 2

Example 5 : Arpeggios in A minor 11



|--------------------------------------------17---22--17------------------------|
|---------------------------------------17-------- T -----17--------------------|
|---------------------------14---19-------------------------19--14--------------|
|---------------------14-------- T ------------------------- T ----14-----------|
|---------12---17-----------------------------------------------------17--12----|
|---12--------- T ------------------------------------------------------ T ---12|



Note : This example repeated 8 times on the sound sample.





Example 6 : Arpeggios in A



|----------------------------------------------------------------------------|
|---------------------------------14---17--14--------------------------------|
|---------------------------14--------- T -------14--------------------------|
|---------------------14--------------------------------14-------------------|
|---------12---16---------------------------------------------16--12---------|
|---12--------- T --------------------------------------------- T ------12---|



Note : This example repeated 8 times on the sound sample.





Example 7 : Arpeggios in B minor



|----------------------------------10---14---19--14-10-----------------------|
|------------------------------12----------- T --------12--------------------|
|--------------------------11------------------------------11----------------|
|------------------9---12-------------------------------------12-------------|
|--------------9------- T ---------------------------------------14-9--------|
|---7---10------------------------------------------------------- T --10-7---|

T T

Note : This example repeated 8 times on the sound sample.





Example 8 : Arpeggios in B



|-------------------------------11---14---19---14-11---------------------|
|---------------------------12----------- T ---------12------------------|
|----------------------11-------------------------------11---------------|
|--------------9---13--------------------------------------13------------|
|----------9------- T ----------------------------------------14-9-------|
|---7---11---------------------------------------------------- T --11-7--|

T T

Note : This example repeated 7 times on the sound sample.

03.08.2002 All guitar transcriptions created and written by : Atanas G. Shishkov.

For contacts and comments : ags@mail.bg

2002 A.G.S. Music, Plovdiv,BG, All Rights Reserved

http://www.geocities.com/atanas_g_shishkov/main.htm

Bookmark and Share
Please vote for us!

Top 100 Guitar Sites | Top 100 Tab Sites

No comments

Leave a Reply